ISO-10303-21;
HEADER;
/* Generated by software containing ST-Developer
 * from STEP Tools, Inc. (www.steptools.com) 
 */

FILE_DESCRIPTION(
/* description */ (''),
/* implementation_level */ '2;1');

FILE_NAME(
/* name */ 
'Z:\\Installationskomponenten\\Datenbl\X\E4tter_pdfs\\KI Fittings\\Ski
zzen\\KI-305_Bend\\KI-305\\KI-305-010\\KI-305-010 Aschl.stp',
/* time_stamp */ '2016-09-14T11:04:38+02:00',
/* author */ ('hochmair'),
/* organization */ (''),
/* preprocessor_version */ 'ST-DEVELOPER v15.6',
/* originating_system */ 'Autodesk Inventor 2015',
/* authorisation */ '');

FILE_SCHEMA (('AUTOMOTIVE_DESIGN { 1 0 10303 214 3 1 1 }'));
ENDSEC;

DATA;
#10=MECHANICAL_DESIGN_GEOMETRIC_PRESENTATION_REPRESENTATION('',(#13),#363);
#11=SHAPE_REPRESENTATION_RELATIONSHIP('SRR','None',#372,#12);
#12=ADVANCED_BREP_SHAPE_REPRESENTATION($,(#14),#362);
#13=STYLED_ITEM('',(#382),#14);
#14=MANIFOLD_SOLID_BREP('Solid1',#202);
#15=TOROIDAL_SURFACE('',#234,45.,5.);
#16=TOROIDAL_SURFACE('',#235,45.,8.6);
#17=CONICAL_SURFACE('',#209,5.15,45.0000000000002);
#18=CONICAL_SURFACE('',#216,5.15,45.0000000000005);
#19=CONICAL_SURFACE('',#223,8.05,45.);
#20=CONICAL_SURFACE('',#227,8.05,45.);
#21=CYLINDRICAL_SURFACE('',#207,8.67789958887863);
#22=CYLINDRICAL_SURFACE('',#214,5.);
#23=CYLINDRICAL_SURFACE('',#221,5.);
#24=CYLINDRICAL_SURFACE('',#225,8.5);
#25=CYLINDRICAL_SURFACE('',#229,8.5);
#26=CYLINDRICAL_SURFACE('',#237,8.6);
#27=FACE_BOUND('',#62,.T.);
#28=FACE_BOUND('',#64,.T.);
#29=FACE_BOUND('',#66,.T.);
#30=FACE_BOUND('',#68,.T.);
#31=FACE_BOUND('',#70,.T.);
#32=FACE_BOUND('',#72,.T.);
#33=FACE_BOUND('',#74,.T.);
#34=FACE_BOUND('',#76,.T.);
#35=FACE_BOUND('',#78,.T.);
#36=FACE_BOUND('',#80,.T.);
#37=FACE_BOUND('',#82,.T.);
#38=FACE_BOUND('',#84,.T.);
#39=FACE_BOUND('',#86,.T.);
#40=FACE_BOUND('',#88,.T.);
#41=FACE_BOUND('',#90,.T.);
#42=FACE_BOUND('',#92,.T.);
#43=FACE_BOUND('',#94,.T.);
#44=FACE_OUTER_BOUND('',#61,.T.);
#45=FACE_OUTER_BOUND('',#63,.T.);
#46=FACE_OUTER_BOUND('',#65,.T.);
#47=FACE_OUTER_BOUND('',#67,.T.);
#48=FACE_OUTER_BOUND('',#69,.T.);
#49=FACE_OUTER_BOUND('',#71,.T.);
#50=FACE_OUTER_BOUND('',#73,.T.);
#51=FACE_OUTER_BOUND('',#75,.T.);
#52=FACE_OUTER_BOUND('',#77,.T.);
#53=FACE_OUTER_BOUND('',#79,.T.);
#54=FACE_OUTER_BOUND('',#81,.T.);
#55=FACE_OUTER_BOUND('',#83,.T.);
#56=FACE_OUTER_BOUND('',#85,.T.);
#57=FACE_OUTER_BOUND('',#87,.T.);
#58=FACE_OUTER_BOUND('',#89,.T.);
#59=FACE_OUTER_BOUND('',#91,.T.);
#60=FACE_OUTER_BOUND('',#93,.T.);
#61=EDGE_LOOP('',(#146));
#62=EDGE_LOOP('',(#147));
#63=EDGE_LOOP('',(#148));
#64=EDGE_LOOP('',(#149));
#65=EDGE_LOOP('',(#150));
#66=EDGE_LOOP('',(#151));
#67=EDGE_LOOP('',(#152));
#68=EDGE_LOOP('',(#153));
#69=EDGE_LOOP('',(#154));
#70=EDGE_LOOP('',(#155));
#71=EDGE_LOOP('',(#156));
#72=EDGE_LOOP('',(#157));
#73=EDGE_LOOP('',(#158));
#74=EDGE_LOOP('',(#159));
#75=EDGE_LOOP('',(#160));
#76=EDGE_LOOP('',(#161));
#77=EDGE_LOOP('',(#162));
#78=EDGE_LOOP('',(#163));
#79=EDGE_LOOP('',(#164));
#80=EDGE_LOOP('',(#165));
#81=EDGE_LOOP('',(#166));
#82=EDGE_LOOP('',(#167));
#83=EDGE_LOOP('',(#168));
#84=EDGE_LOOP('',(#169));
#85=EDGE_LOOP('',(#170));
#86=EDGE_LOOP('',(#171));
#87=EDGE_LOOP('',(#172));
#88=EDGE_LOOP('',(#173));
#89=EDGE_LOOP('',(#174));
#90=EDGE_LOOP('',(#175));
#91=EDGE_LOOP('',(#176));
#92=EDGE_LOOP('',(#177));
#93=EDGE_LOOP('',(#178));
#94=EDGE_LOOP('',(#179));
#95=CIRCLE('',#205,8.67789958887863);
#96=CIRCLE('',#206,8.6);
#97=CIRCLE('',#208,8.67789958887863);
#98=CIRCLE('',#210,5.);
#99=CIRCLE('',#211,5.3);
#100=CIRCLE('',#213,7.6);
#101=CIRCLE('',#215,5.);
#102=CIRCLE('',#217,5.);
#103=CIRCLE('',#218,5.3);
#104=CIRCLE('',#220,7.6);
#105=CIRCLE('',#222,5.);
#106=CIRCLE('',#224,8.5);
#107=CIRCLE('',#226,8.5);
#108=CIRCLE('',#228,8.5);
#109=CIRCLE('',#230,8.5);
#110=CIRCLE('',#233,8.6);
#111=CIRCLE('',#236,8.6);
#112=VERTEX_POINT('',#310);
#113=VERTEX_POINT('',#312);
#114=VERTEX_POINT('',#315);
#115=VERTEX_POINT('',#318);
#116=VERTEX_POINT('',#320);
#117=VERTEX_POINT('',#323);
#118=VERTEX_POINT('',#326);
#119=VERTEX_POINT('',#329);
#120=VERTEX_POINT('',#331);
#121=VERTEX_POINT('',#334);
#122=VERTEX_POINT('',#337);
#123=VERTEX_POINT('',#340);
#124=VERTEX_POINT('',#343);
#125=VERTEX_POINT('',#346);
#126=VERTEX_POINT('',#349);
#127=VERTEX_POINT('',#353);
#128=VERTEX_POINT('',#357);
#129=EDGE_CURVE('',#112,#112,#95,.T.);
#130=EDGE_CURVE('',#113,#113,#96,.T.);
#131=EDGE_CURVE('',#114,#114,#97,.T.);
#132=EDGE_CURVE('',#115,#115,#98,.T.);
#133=EDGE_CURVE('',#116,#116,#99,.T.);
#134=EDGE_CURVE('',#117,#117,#100,.T.);
#135=EDGE_CURVE('',#118,#118,#101,.T.);
#136=EDGE_CURVE('',#119,#119,#102,.T.);
#137=EDGE_CURVE('',#120,#120,#103,.T.);
#138=EDGE_CURVE('',#121,#121,#104,.T.);
#139=EDGE_CURVE('',#122,#122,#105,.T.);
#140=EDGE_CURVE('',#123,#123,#106,.T.);
#141=EDGE_CURVE('',#124,#124,#107,.T.);
#142=EDGE_CURVE('',#125,#125,#108,.T.);
#143=EDGE_CURVE('',#126,#126,#109,.T.);
#144=EDGE_CURVE('',#127,#127,#110,.T.);
#145=EDGE_CURVE('',#128,#128,#111,.T.);
#146=ORIENTED_EDGE('',*,*,#129,.F.);
#147=ORIENTED_EDGE('',*,*,#130,.T.);
#148=ORIENTED_EDGE('',*,*,#129,.T.);
#149=ORIENTED_EDGE('',*,*,#131,.F.);
#150=ORIENTED_EDGE('',*,*,#132,.T.);
#151=ORIENTED_EDGE('',*,*,#133,.T.);
#152=ORIENTED_EDGE('',*,*,#134,.F.);
#153=ORIENTED_EDGE('',*,*,#133,.F.);
#154=ORIENTED_EDGE('',*,*,#135,.T.);
#155=ORIENTED_EDGE('',*,*,#132,.F.);
#156=ORIENTED_EDGE('',*,*,#136,.T.);
#157=ORIENTED_EDGE('',*,*,#137,.T.);
#158=ORIENTED_EDGE('',*,*,#138,.F.);
#159=ORIENTED_EDGE('',*,*,#137,.F.);
#160=ORIENTED_EDGE('',*,*,#139,.F.);
#161=ORIENTED_EDGE('',*,*,#136,.F.);
#162=ORIENTED_EDGE('',*,*,#140,.T.);
#163=ORIENTED_EDGE('',*,*,#134,.T.);
#164=ORIENTED_EDGE('',*,*,#141,.T.);
#165=ORIENTED_EDGE('',*,*,#140,.F.);
#166=ORIENTED_EDGE('',*,*,#142,.T.);
#167=ORIENTED_EDGE('',*,*,#138,.T.);
#168=ORIENTED_EDGE('',*,*,#143,.T.);
#169=ORIENTED_EDGE('',*,*,#142,.F.);
#170=ORIENTED_EDGE('',*,*,#131,.T.);
#171=ORIENTED_EDGE('',*,*,#143,.F.);
#172=ORIENTED_EDGE('',*,*,#144,.F.);
#173=ORIENTED_EDGE('',*,*,#141,.F.);
#174=ORIENTED_EDGE('',*,*,#139,.T.);
#175=ORIENTED_EDGE('',*,*,#135,.F.);
#176=ORIENTED_EDGE('',*,*,#130,.F.);
#177=ORIENTED_EDGE('',*,*,#145,.T.);
#178=ORIENTED_EDGE('',*,*,#144,.T.);
#179=ORIENTED_EDGE('',*,*,#145,.F.);
#180=PLANE('',#204);
#181=PLANE('',#212);
#182=PLANE('',#219);
#183=PLANE('',#231);
#184=PLANE('',#232);
#185=ADVANCED_FACE('',(#44,#27),#180,.T.);
#186=ADVANCED_FACE('',(#45,#28),#21,.T.);
#187=ADVANCED_FACE('',(#46,#29),#17,.F.);
#188=ADVANCED_FACE('',(#47,#30),#181,.T.);
#189=ADVANCED_FACE('',(#48,#31),#22,.F.);
#190=ADVANCED_FACE('',(#49,#32),#18,.F.);
#191=ADVANCED_FACE('',(#50,#33),#182,.F.);
#192=ADVANCED_FACE('',(#51,#34),#23,.F.);
#193=ADVANCED_FACE('',(#52,#35),#19,.T.);
#194=ADVANCED_FACE('',(#53,#36),#24,.T.);
#195=ADVANCED_FACE('',(#54,#37),#20,.T.);
#196=ADVANCED_FACE('',(#55,#38),#25,.T.);
#197=ADVANCED_FACE('',(#56,#39),#183,.F.);
#198=ADVANCED_FACE('',(#57,#40),#184,.T.);
#199=ADVANCED_FACE('',(#58,#41),#15,.F.);
#200=ADVANCED_FACE('',(#59,#42),#16,.T.);
#201=ADVANCED_FACE('',(#60,#43),#26,.T.);
#202=CLOSED_SHELL('',(#185,#186,#187,#188,#189,#190,#191,#192,#193,#194,
#195,#196,#197,#198,#199,#200,#201));
#203=AXIS2_PLACEMENT_3D('placement',#308,#238,#239);
#204=AXIS2_PLACEMENT_3D('',#309,#240,#241);
#205=AXIS2_PLACEMENT_3D('',#311,#242,#243);
#206=AXIS2_PLACEMENT_3D('',#313,#244,#245);
#207=AXIS2_PLACEMENT_3D('',#314,#246,#247);
#208=AXIS2_PLACEMENT_3D('',#316,#248,#249);
#209=AXIS2_PLACEMENT_3D('',#317,#250,#251);
#210=AXIS2_PLACEMENT_3D('',#319,#252,#253);
#211=AXIS2_PLACEMENT_3D('',#321,#254,#255);
#212=AXIS2_PLACEMENT_3D('',#322,#256,#257);
#213=AXIS2_PLACEMENT_3D('',#324,#258,#259);
#214=AXIS2_PLACEMENT_3D('',#325,#260,#261);
#215=AXIS2_PLACEMENT_3D('',#327,#262,#263);
#216=AXIS2_PLACEMENT_3D('',#328,#264,#265);
#217=AXIS2_PLACEMENT_3D('',#330,#266,#267);
#218=AXIS2_PLACEMENT_3D('',#332,#268,#269);
#219=AXIS2_PLACEMENT_3D('',#333,#270,#271);
#220=AXIS2_PLACEMENT_3D('',#335,#272,#273);
#221=AXIS2_PLACEMENT_3D('',#336,#274,#275);
#222=AXIS2_PLACEMENT_3D('',#338,#276,#277);
#223=AXIS2_PLACEMENT_3D('',#339,#278,#279);
#224=AXIS2_PLACEMENT_3D('',#341,#280,#281);
#225=AXIS2_PLACEMENT_3D('',#342,#282,#283);
#226=AXIS2_PLACEMENT_3D('',#344,#284,#285);
#227=AXIS2_PLACEMENT_3D('',#345,#286,#287);
#228=AXIS2_PLACEMENT_3D('',#347,#288,#289);
#229=AXIS2_PLACEMENT_3D('',#348,#290,#291);
#230=AXIS2_PLACEMENT_3D('',#350,#292,#293);
#231=AXIS2_PLACEMENT_3D('',#351,#294,#295);
#232=AXIS2_PLACEMENT_3D('',#352,#296,#297);
#233=AXIS2_PLACEMENT_3D('',#354,#298,#299);
#234=AXIS2_PLACEMENT_3D('',#355,#300,#301);
#235=AXIS2_PLACEMENT_3D('',#356,#302,#303);
#236=AXIS2_PLACEMENT_3D('',#358,#304,#305);
#237=AXIS2_PLACEMENT_3D('',#359,#306,#307);
#238=DIRECTION('axis',(0.,0.,1.));
#239=DIRECTION('refdir',(1.,0.,0.));
#240=DIRECTION('center_axis',(0.,1.,0.));
#241=DIRECTION('ref_axis',(0.,0.,1.));
#242=DIRECTION('center_axis',(0.,-1.,0.));
#243=DIRECTION('ref_axis',(1.,0.,0.));
#244=DIRECTION('center_axis',(-6.12323399573677E-17,-1.,0.));
#245=DIRECTION('ref_axis',(1.,-6.12323399573677E-17,0.));
#246=DIRECTION('center_axis',(0.,-1.,0.));
#247=DIRECTION('ref_axis',(1.,0.,0.));
#248=DIRECTION('center_axis',(0.,-1.,0.));
#249=DIRECTION('ref_axis',(1.,0.,0.));
#250=DIRECTION('center_axis',(1.,0.,0.));
#251=DIRECTION('ref_axis',(0.,-1.,0.));
#252=DIRECTION('center_axis',(-1.,0.,0.));
#253=DIRECTION('ref_axis',(0.,-1.,0.));
#254=DIRECTION('center_axis',(1.,0.,0.));
#255=DIRECTION('ref_axis',(0.,-1.,0.));
#256=DIRECTION('center_axis',(1.,0.,0.));
#257=DIRECTION('ref_axis',(0.,0.,-1.));
#258=DIRECTION('center_axis',(-1.,0.,0.));
#259=DIRECTION('ref_axis',(0.,-1.,0.));
#260=DIRECTION('center_axis',(-1.,0.,0.));
#261=DIRECTION('ref_axis',(0.,-1.,0.));
#262=DIRECTION('center_axis',(-1.,0.,0.));
#263=DIRECTION('ref_axis',(0.,-1.,0.));
#264=DIRECTION('center_axis',(0.,-1.,0.));
#265=DIRECTION('ref_axis',(1.,0.,0.));
#266=DIRECTION('center_axis',(6.12323399573677E-17,1.,0.));
#267=DIRECTION('ref_axis',(1.,-6.12323399573677E-17,0.));
#268=DIRECTION('center_axis',(-6.12323399573677E-17,-1.,0.));
#269=DIRECTION('ref_axis',(1.,-6.12323399573677E-17,0.));
#270=DIRECTION('center_axis',(6.12323399573677E-17,1.,0.));
#271=DIRECTION('ref_axis',(0.,0.,-1.));
#272=DIRECTION('center_axis',(6.12323399573677E-17,1.,0.));
#273=DIRECTION('ref_axis',(1.,-6.12323399573677E-17,0.));
#274=DIRECTION('center_axis',(0.,-1.,0.));
#275=DIRECTION('ref_axis',(1.,0.,0.));
#276=DIRECTION('center_axis',(-6.12323399573677E-17,-1.,0.));
#277=DIRECTION('ref_axis',(1.,-6.12323399573677E-17,0.));
#278=DIRECTION('center_axis',(-1.,0.,0.));
#279=DIRECTION('ref_axis',(0.,-1.,0.));
#280=DIRECTION('center_axis',(1.,0.,0.));
#281=DIRECTION('ref_axis',(0.,-1.,0.));
#282=DIRECTION('center_axis',(-1.,0.,0.));
#283=DIRECTION('ref_axis',(0.,-1.,0.));
#284=DIRECTION('center_axis',(1.,0.,0.));
#285=DIRECTION('ref_axis',(0.,-1.,0.));
#286=DIRECTION('center_axis',(0.,1.,0.));
#287=DIRECTION('ref_axis',(1.,0.,0.));
#288=DIRECTION('center_axis',(-6.12323399573677E-17,-1.,0.));
#289=DIRECTION('ref_axis',(1.,-6.12323399573677E-17,0.));
#290=DIRECTION('center_axis',(0.,1.,0.));
#291=DIRECTION('ref_axis',(1.,0.,0.));
#292=DIRECTION('center_axis',(0.,-1.,0.));
#293=DIRECTION('ref_axis',(1.,0.,0.));
#294=DIRECTION('center_axis',(0.,1.,0.));
#295=DIRECTION('ref_axis',(0.,0.,1.));
#296=DIRECTION('center_axis',(1.,0.,0.));
#297=DIRECTION('ref_axis',(0.,0.,-1.));
#298=DIRECTION('center_axis',(-1.,0.,0.));
#299=DIRECTION('ref_axis',(0.,-1.,0.));
#300=DIRECTION('center_axis',(0.,0.,1.));
#301=DIRECTION('ref_axis',(1.,0.,0.));
#302=DIRECTION('center_axis',(0.,0.,1.));
#303=DIRECTION('ref_axis',(1.,0.,0.));
#304=DIRECTION('center_axis',(-1.,0.,0.));
#305=DIRECTION('ref_axis',(0.,-1.,0.));
#306=DIRECTION('center_axis',(-1.,0.,0.));
#307=DIRECTION('ref_axis',(0.,-1.,0.));
#308=CARTESIAN_POINT('',(0.,0.,0.));
#309=CARTESIAN_POINT('Origin',(-61.3221004111214,25.,0.));
#310=CARTESIAN_POINT('',(-61.3221004111214,25.,0.));
#311=CARTESIAN_POINT('Origin',(-70.,25.,0.));
#312=CARTESIAN_POINT('',(-78.6,25.,1.05319624726672E-15));
#313=CARTESIAN_POINT('Origin',(-70.,25.,0.));
#314=CARTESIAN_POINT('Origin',(-70.,19.,0.));
#315=CARTESIAN_POINT('',(-61.3221004111214,13.,0.));
#316=CARTESIAN_POINT('Origin',(-70.,13.,0.));
#317=CARTESIAN_POINT('Origin',(-0.15,70.,0.));
#318=CARTESIAN_POINT('',(-0.3,75.,-6.12323399573677E-16));
#319=CARTESIAN_POINT('Origin',(-0.3,70.,0.));
#320=CARTESIAN_POINT('',(0.,75.3,6.49062803548097E-16));
#321=CARTESIAN_POINT('Origin',(0.,70.,0.));
#322=CARTESIAN_POINT('Origin',(0.,70.,-2.15159500896348E-16));
#323=CARTESIAN_POINT('',(0.,77.6,-9.30731567351989E-16));
#324=CARTESIAN_POINT('Origin',(0.,70.,0.));
#325=CARTESIAN_POINT('Origin',(0.,70.,0.));
#326=CARTESIAN_POINT('',(-25.,75.,6.12323399573677E-16));
#327=CARTESIAN_POINT('Origin',(-25.,70.,0.));
#328=CARTESIAN_POINT('Origin',(-70.,0.150000000000012,0.));
#329=CARTESIAN_POINT('',(-75.,0.300000000000011,6.12323399573677E-16));
#330=CARTESIAN_POINT('Origin',(-70.,0.300000000000011,0.));
#331=CARTESIAN_POINT('',(-75.3,1.36472076972759E-14,-6.49062803548097E-16));
#332=CARTESIAN_POINT('Origin',(-70.,1.33226762955019E-14,0.));
#333=CARTESIAN_POINT('Origin',(-70.,1.33226762955019E-14,-2.15159500896348E-16));
#334=CARTESIAN_POINT('',(-77.6,1.37880420791779E-14,9.30731567351989E-16));
#335=CARTESIAN_POINT('Origin',(-70.,1.33226762955019E-14,0.));
#336=CARTESIAN_POINT('Origin',(-70.,25.,0.));
#337=CARTESIAN_POINT('',(-75.,25.,6.12323399573677E-16));
#338=CARTESIAN_POINT('Origin',(-70.,25.,0.));
#339=CARTESIAN_POINT('Origin',(-0.45,70.,0.));
#340=CARTESIAN_POINT('',(-0.9,78.5,1.04094977927525E-15));
#341=CARTESIAN_POINT('Origin',(-0.9,70.,0.));
#342=CARTESIAN_POINT('Origin',(0.,70.,0.));
#343=CARTESIAN_POINT('',(-13.,78.5,1.04094977927525E-15));
#344=CARTESIAN_POINT('Origin',(-13.,70.,0.));
#345=CARTESIAN_POINT('Origin',(-70.,0.450000000000014,0.));
#346=CARTESIAN_POINT('',(-78.5,0.900000000000014,-1.04094977927525E-15));
#347=CARTESIAN_POINT('Origin',(-70.,0.900000000000014,0.));
#348=CARTESIAN_POINT('Origin',(-70.,0.,0.));
#349=CARTESIAN_POINT('',(-78.5,13.,1.04094977927525E-15));
#350=CARTESIAN_POINT('Origin',(-70.,13.,0.));
#351=CARTESIAN_POINT('Origin',(-70.,13.,2.12686403184896E-16));
#352=CARTESIAN_POINT('Origin',(-13.,70.,2.12686403184896E-16));
#353=CARTESIAN_POINT('',(-13.,78.6,-1.05319624726672E-15));
#354=CARTESIAN_POINT('Origin',(-13.,70.,0.));
#355=CARTESIAN_POINT('Origin',(-25.,25.,0.));
#356=CARTESIAN_POINT('Origin',(-25.,25.,0.));
#357=CARTESIAN_POINT('',(-25.,78.6,1.05319624726672E-15));
#358=CARTESIAN_POINT('Origin',(-25.,70.,0.));
#359=CARTESIAN_POINT('Origin',(0.,70.,0.));
#360=UNCERTAINTY_MEASURE_WITH_UNIT(LENGTH_MEASURE(0.01),#364,
'DISTANCE_ACCURACY_VALUE',
'Maximum model space distance between geometric entities at asserted c
onnectivities');
#361=UNCERTAINTY_MEASURE_WITH_UNIT(LENGTH_MEASURE(1.E-6),#364,
'DISTANCE_ACCURACY_VALUE',
'Maximum model space distance between geometric entities at asserted c
onnectivities');
#362=(
GEOMETRIC_REPRESENTATION_CONTEXT(3)
GLOBAL_UNCERTAINTY_ASSIGNED_CONTEXT((#360))
GLOBAL_UNIT_ASSIGNED_CONTEXT((#364,#367,#365))
REPRESENTATION_CONTEXT('','3D')
);
#363=(
GEOMETRIC_REPRESENTATION_CONTEXT(3)
GLOBAL_UNCERTAINTY_ASSIGNED_CONTEXT((#361))
GLOBAL_UNIT_ASSIGNED_CONTEXT((#364,#367,#365))
REPRESENTATION_CONTEXT('','3D')
);
#364=(
LENGTH_UNIT()
NAMED_UNIT(*)
SI_UNIT(.MILLI.,.METRE.)
);
#365=(
NAMED_UNIT(*)
SI_UNIT($,.STERADIAN.)
SOLID_ANGLE_UNIT()
);
#366=DIMENSIONAL_EXPONENTS(0.,0.,0.,0.,0.,0.,0.);
#367=(
CONVERSION_BASED_UNIT('degree',#369)
NAMED_UNIT(#366)
PLANE_ANGLE_UNIT()
);
#368=(
NAMED_UNIT(*)
PLANE_ANGLE_UNIT()
SI_UNIT($,.RADIAN.)
);
#369=PLANE_ANGLE_MEASURE_WITH_UNIT(PLANE_ANGLE_MEASURE(0.01745329252),#368);
#370=SHAPE_DEFINITION_REPRESENTATION(#371,#372);
#371=PRODUCT_DEFINITION_SHAPE('',$,#374);
#372=SHAPE_REPRESENTATION('',(#203),#362);
#373=PRODUCT_DEFINITION_CONTEXT('part definition',#378,'design');
#374=PRODUCT_DEFINITION('TB10212180','TB10212180',#375,#373);
#375=PRODUCT_DEFINITION_FORMATION('',$,#380);
#376=PRODUCT_RELATED_PRODUCT_CATEGORY('TB10212180','TB10212180',(#380));
#377=APPLICATION_PROTOCOL_DEFINITION('international standard',
'automotive_design',2009,#378);
#378=APPLICATION_CONTEXT(
'Core Data for Automotive Mechanical Design Process');
#379=PRODUCT_CONTEXT('part definition',#378,'mechanical');
#380=PRODUCT('TB10212180','TB10212180',$,(#379));
#381=PRESENTATION_STYLE_ASSIGNMENT((#383));
#382=PRESENTATION_STYLE_ASSIGNMENT((#384));
#383=SURFACE_STYLE_USAGE(.BOTH.,#385);
#384=SURFACE_STYLE_USAGE(.BOTH.,#386);
#385=SURFACE_SIDE_STYLE($,(#387));
#386=SURFACE_SIDE_STYLE($,(#388));
#387=SURFACE_STYLE_FILL_AREA(#389);
#388=SURFACE_STYLE_FILL_AREA(#390);
#389=FILL_AREA_STYLE($,(#391));
#390=FILL_AREA_STYLE($,(#392));
#391=FILL_AREA_STYLE_COLOUR($,#393);
#392=FILL_AREA_STYLE_COLOUR($,#394);
#393=COLOUR_RGB('',0.749019607843137,0.749019607843137,0.749019607843137);
#394=COLOUR_RGB('',0.745098039215686,0.737254901960784,0.729411764705882);
ENDSEC;
END-ISO-10303-21;
