ISO-10303-21;
HEADER;
/* Generated by software containing ST-Developer
 * from STEP Tools, Inc. (www.steptools.com) 
 */

FILE_DESCRIPTION(
/* description */ (''),
/* implementation_level */ '2;1');

FILE_NAME(
/* name */ 
'Z:\\Installationskomponenten\\Datenbl\X\E4tter_pdfs\\KI Fittings\\Ski
zzen\\KI-308_SL-Welding nipple from tube\\KI-308\\KI-308-010\\KI-308-0
10 Aschl.stp',
/* time_stamp */ '2016-06-01T15:53:47+02:00',
/* author */ ('hochmair'),
/* organization */ (''),
/* preprocessor_version */ 'ST-DEVELOPER v15.6',
/* originating_system */ 'Autodesk Inventor 2015',
/* authorisation */ '');

FILE_SCHEMA (('AUTOMOTIVE_DESIGN { 1 0 10303 214 3 1 1 }'));
ENDSEC;

DATA;
#10=MECHANICAL_DESIGN_GEOMETRIC_PRESENTATION_REPRESENTATION('',(#13),#223);
#11=SHAPE_REPRESENTATION_RELATIONSHIP('SRR','None',#232,#12);
#12=ADVANCED_BREP_SHAPE_REPRESENTATION($,(#14),#222);
#13=STYLED_ITEM('',(#242),#14);
#14=MANIFOLD_SOLID_BREP('Solid1',#125);
#15=CONICAL_SURFACE('',#134,6.25,45.);
#16=CONICAL_SURFACE('',#141,6.25,45.);
#17=CONICAL_SURFACE('',#145,8.0425,45.);
#18=CONICAL_SURFACE('',#146,7.9425,45.0000000000001);
#19=CYLINDRICAL_SURFACE('',#130,8.331);
#20=CYLINDRICAL_SURFACE('',#132,8.431);
#21=CYLINDRICAL_SURFACE('',#137,6.);
#22=FACE_BOUND('',#43,.T.);
#23=FACE_BOUND('',#45,.T.);
#24=FACE_BOUND('',#47,.T.);
#25=FACE_BOUND('',#49,.T.);
#26=FACE_BOUND('',#51,.T.);
#27=FACE_BOUND('',#53,.T.);
#28=FACE_BOUND('',#55,.T.);
#29=FACE_BOUND('',#57,.T.);
#30=FACE_BOUND('',#59,.T.);
#31=FACE_BOUND('',#61,.T.);
#32=FACE_OUTER_BOUND('',#42,.T.);
#33=FACE_OUTER_BOUND('',#44,.T.);
#34=FACE_OUTER_BOUND('',#46,.T.);
#35=FACE_OUTER_BOUND('',#48,.T.);
#36=FACE_OUTER_BOUND('',#50,.T.);
#37=FACE_OUTER_BOUND('',#52,.T.);
#38=FACE_OUTER_BOUND('',#54,.T.);
#39=FACE_OUTER_BOUND('',#56,.T.);
#40=FACE_OUTER_BOUND('',#58,.T.);
#41=FACE_OUTER_BOUND('',#60,.T.);
#42=EDGE_LOOP('',(#92));
#43=EDGE_LOOP('',(#93));
#44=EDGE_LOOP('',(#94));
#45=EDGE_LOOP('',(#95));
#46=EDGE_LOOP('',(#96));
#47=EDGE_LOOP('',(#97));
#48=EDGE_LOOP('',(#98));
#49=EDGE_LOOP('',(#99));
#50=EDGE_LOOP('',(#100));
#51=EDGE_LOOP('',(#101));
#52=EDGE_LOOP('',(#102));
#53=EDGE_LOOP('',(#103));
#54=EDGE_LOOP('',(#104));
#55=EDGE_LOOP('',(#105));
#56=EDGE_LOOP('',(#106));
#57=EDGE_LOOP('',(#107));
#58=EDGE_LOOP('',(#108));
#59=EDGE_LOOP('',(#109));
#60=EDGE_LOOP('',(#110));
#61=EDGE_LOOP('',(#111));
#62=CIRCLE('',#128,8.431);
#63=CIRCLE('',#129,8.331);
#64=CIRCLE('',#131,8.331);
#65=CIRCLE('',#133,8.431);
#66=CIRCLE('',#135,6.);
#67=CIRCLE('',#136,6.5);
#68=CIRCLE('',#138,6.);
#69=CIRCLE('',#140,7.654);
#70=CIRCLE('',#142,6.5);
#71=CIRCLE('',#144,7.554);
#72=VERTEX_POINT('',#191);
#73=VERTEX_POINT('',#193);
#74=VERTEX_POINT('',#196);
#75=VERTEX_POINT('',#199);
#76=VERTEX_POINT('',#202);
#77=VERTEX_POINT('',#204);
#78=VERTEX_POINT('',#207);
#79=VERTEX_POINT('',#210);
#80=VERTEX_POINT('',#213);
#81=VERTEX_POINT('',#216);
#82=EDGE_CURVE('',#72,#72,#62,.T.);
#83=EDGE_CURVE('',#73,#73,#63,.T.);
#84=EDGE_CURVE('',#74,#74,#64,.T.);
#85=EDGE_CURVE('',#75,#75,#65,.T.);
#86=EDGE_CURVE('',#76,#76,#66,.T.);
#87=EDGE_CURVE('',#77,#77,#67,.T.);
#88=EDGE_CURVE('',#78,#78,#68,.T.);
#89=EDGE_CURVE('',#79,#79,#69,.T.);
#90=EDGE_CURVE('',#80,#80,#70,.T.);
#91=EDGE_CURVE('',#81,#81,#71,.T.);
#92=ORIENTED_EDGE('',*,*,#82,.T.);
#93=ORIENTED_EDGE('',*,*,#83,.F.);
#94=ORIENTED_EDGE('',*,*,#83,.T.);
#95=ORIENTED_EDGE('',*,*,#84,.F.);
#96=ORIENTED_EDGE('',*,*,#82,.F.);
#97=ORIENTED_EDGE('',*,*,#85,.F.);
#98=ORIENTED_EDGE('',*,*,#86,.T.);
#99=ORIENTED_EDGE('',*,*,#87,.T.);
#100=ORIENTED_EDGE('',*,*,#88,.F.);
#101=ORIENTED_EDGE('',*,*,#86,.F.);
#102=ORIENTED_EDGE('',*,*,#89,.F.);
#103=ORIENTED_EDGE('',*,*,#87,.F.);
#104=ORIENTED_EDGE('',*,*,#88,.T.);
#105=ORIENTED_EDGE('',*,*,#90,.T.);
#106=ORIENTED_EDGE('',*,*,#91,.F.);
#107=ORIENTED_EDGE('',*,*,#90,.F.);
#108=ORIENTED_EDGE('',*,*,#85,.T.);
#109=ORIENTED_EDGE('',*,*,#89,.T.);
#110=ORIENTED_EDGE('',*,*,#84,.T.);
#111=ORIENTED_EDGE('',*,*,#91,.T.);
#112=PLANE('',#127);
#113=PLANE('',#139);
#114=PLANE('',#143);
#115=ADVANCED_FACE('',(#32,#22),#112,.F.);
#116=ADVANCED_FACE('',(#33,#23),#19,.T.);
#117=ADVANCED_FACE('',(#34,#24),#20,.T.);
#118=ADVANCED_FACE('',(#35,#25),#15,.F.);
#119=ADVANCED_FACE('',(#36,#26),#21,.F.);
#120=ADVANCED_FACE('',(#37,#27),#113,.T.);
#121=ADVANCED_FACE('',(#38,#28),#16,.F.);
#122=ADVANCED_FACE('',(#39,#29),#114,.F.);
#123=ADVANCED_FACE('',(#40,#30),#17,.T.);
#124=ADVANCED_FACE('',(#41,#31),#18,.T.);
#125=CLOSED_SHELL('',(#115,#116,#117,#118,#119,#120,#121,#122,#123,#124));
#126=AXIS2_PLACEMENT_3D('placement',#189,#147,#148);
#127=AXIS2_PLACEMENT_3D('',#190,#149,#150);
#128=AXIS2_PLACEMENT_3D('',#192,#151,#152);
#129=AXIS2_PLACEMENT_3D('',#194,#153,#154);
#130=AXIS2_PLACEMENT_3D('',#195,#155,#156);
#131=AXIS2_PLACEMENT_3D('',#197,#157,#158);
#132=AXIS2_PLACEMENT_3D('',#198,#159,#160);
#133=AXIS2_PLACEMENT_3D('',#200,#161,#162);
#134=AXIS2_PLACEMENT_3D('',#201,#163,#164);
#135=AXIS2_PLACEMENT_3D('',#203,#165,#166);
#136=AXIS2_PLACEMENT_3D('',#205,#167,#168);
#137=AXIS2_PLACEMENT_3D('',#206,#169,#170);
#138=AXIS2_PLACEMENT_3D('',#208,#171,#172);
#139=AXIS2_PLACEMENT_3D('',#209,#173,#174);
#140=AXIS2_PLACEMENT_3D('',#211,#175,#176);
#141=AXIS2_PLACEMENT_3D('',#212,#177,#178);
#142=AXIS2_PLACEMENT_3D('',#214,#179,#180);
#143=AXIS2_PLACEMENT_3D('',#215,#181,#182);
#144=AXIS2_PLACEMENT_3D('',#217,#183,#184);
#145=AXIS2_PLACEMENT_3D('',#218,#185,#186);
#146=AXIS2_PLACEMENT_3D('',#219,#187,#188);
#147=DIRECTION('axis',(0.,0.,1.));
#148=DIRECTION('refdir',(1.,0.,0.));
#149=DIRECTION('center_axis',(0.,1.,0.));
#150=DIRECTION('ref_axis',(0.,0.,1.));
#151=DIRECTION('center_axis',(0.,-1.,0.));
#152=DIRECTION('ref_axis',(1.,0.,0.));
#153=DIRECTION('center_axis',(0.,-1.,0.));
#154=DIRECTION('ref_axis',(1.,0.,0.));
#155=DIRECTION('center_axis',(0.,1.,0.));
#156=DIRECTION('ref_axis',(1.,0.,0.));
#157=DIRECTION('center_axis',(0.,-1.,0.));
#158=DIRECTION('ref_axis',(1.,0.,0.));
#159=DIRECTION('center_axis',(0.,1.,0.));
#160=DIRECTION('ref_axis',(1.,0.,0.));
#161=DIRECTION('center_axis',(0.,1.,0.));
#162=DIRECTION('ref_axis',(1.,0.,0.));
#163=DIRECTION('center_axis',(0.,1.,0.));
#164=DIRECTION('ref_axis',(1.,0.,0.));
#165=DIRECTION('center_axis',(0.,-1.,0.));
#166=DIRECTION('ref_axis',(1.,0.,0.));
#167=DIRECTION('center_axis',(0.,1.,0.));
#168=DIRECTION('ref_axis',(1.,0.,0.));
#169=DIRECTION('center_axis',(0.,1.,0.));
#170=DIRECTION('ref_axis',(1.,0.,0.));
#171=DIRECTION('center_axis',(0.,1.,0.));
#172=DIRECTION('ref_axis',(1.,0.,0.));
#173=DIRECTION('center_axis',(0.,1.,0.));
#174=DIRECTION('ref_axis',(0.,0.,1.));
#175=DIRECTION('center_axis',(0.,-1.,0.));
#176=DIRECTION('ref_axis',(1.,0.,0.));
#177=DIRECTION('center_axis',(0.,-1.,0.));
#178=DIRECTION('ref_axis',(1.,0.,0.));
#179=DIRECTION('center_axis',(0.,-1.,0.));
#180=DIRECTION('ref_axis',(1.,0.,0.));
#181=DIRECTION('center_axis',(0.,1.,0.));
#182=DIRECTION('ref_axis',(0.,0.,1.));
#183=DIRECTION('center_axis',(0.,1.,0.));
#184=DIRECTION('ref_axis',(1.,0.,0.));
#185=DIRECTION('center_axis',(0.,-1.,0.));
#186=DIRECTION('ref_axis',(1.,0.,0.));
#187=DIRECTION('center_axis',(0.,1.,0.));
#188=DIRECTION('ref_axis',(1.,0.,0.));
#189=CARTESIAN_POINT('',(0.,0.,0.));
#190=CARTESIAN_POINT('Origin',(5.2498642009298E-16,-9.,-2.19472388531443E-16));
#191=CARTESIAN_POINT('',(-8.431,-9.,1.03249971636113E-15));
#192=CARTESIAN_POINT('Origin',(0.,-9.,0.));
#193=CARTESIAN_POINT('',(-8.331,-9.,-1.02025324836966E-15));
#194=CARTESIAN_POINT('Origin',(0.,-9.,0.));
#195=CARTESIAN_POINT('Origin',(0.,0.,0.));
#196=CARTESIAN_POINT('',(-8.331,-19.223,-1.02025324836966E-15));
#197=CARTESIAN_POINT('Origin',(0.,-19.223,0.));
#198=CARTESIAN_POINT('Origin',(0.,0.,0.));
#199=CARTESIAN_POINT('',(-8.431,9.223,1.03249971636113E-15));
#200=CARTESIAN_POINT('Origin',(0.,9.223,0.));
#201=CARTESIAN_POINT('Origin',(0.,9.75,0.));
#202=CARTESIAN_POINT('',(-6.,9.5,-7.34788079488411E-16));
#203=CARTESIAN_POINT('Origin',(0.,9.5,0.));
#204=CARTESIAN_POINT('',(-6.5,10.,7.96020419445779E-16));
#205=CARTESIAN_POINT('Origin',(0.,10.,0.));
#206=CARTESIAN_POINT('Origin',(0.,0.,0.));
#207=CARTESIAN_POINT('',(-6.,-19.5,7.34788079488411E-16));
#208=CARTESIAN_POINT('Origin',(0.,-19.5,0.));
#209=CARTESIAN_POINT('Origin',(5.29234693685971E-16,10.,0.));
#210=CARTESIAN_POINT('',(-7.654,10.,-9.37344660067384E-16));
#211=CARTESIAN_POINT('Origin',(0.,10.,0.));
#212=CARTESIAN_POINT('Origin',(0.,-19.75,0.));
#213=CARTESIAN_POINT('',(-6.5,-20.,-7.96020419445779E-16));
#214=CARTESIAN_POINT('Origin',(0.,-20.,0.));
#215=CARTESIAN_POINT('Origin',(5.29234693685971E-16,-20.,0.));
#216=CARTESIAN_POINT('',(-7.554,-20.,9.2509819207591E-16));
#217=CARTESIAN_POINT('Origin',(0.,-20.,0.));
#218=CARTESIAN_POINT('Origin',(0.,9.6115,0.));
#219=CARTESIAN_POINT('Origin',(0.,-19.6115,0.));
#220=UNCERTAINTY_MEASURE_WITH_UNIT(LENGTH_MEASURE(0.01),#224,
'DISTANCE_ACCURACY_VALUE',
'Maximum model space distance between geometric entities at asserted c
onnectivities');
#221=UNCERTAINTY_MEASURE_WITH_UNIT(LENGTH_MEASURE(1.E-6),#224,
'DISTANCE_ACCURACY_VALUE',
'Maximum model space distance between geometric entities at asserted c
onnectivities');
#222=(
GEOMETRIC_REPRESENTATION_CONTEXT(3)
GLOBAL_UNCERTAINTY_ASSIGNED_CONTEXT((#220))
GLOBAL_UNIT_ASSIGNED_CONTEXT((#224,#227,#225))
REPRESENTATION_CONTEXT('','3D')
);
#223=(
GEOMETRIC_REPRESENTATION_CONTEXT(3)
GLOBAL_UNCERTAINTY_ASSIGNED_CONTEXT((#221))
GLOBAL_UNIT_ASSIGNED_CONTEXT((#224,#227,#225))
REPRESENTATION_CONTEXT('','3D')
);
#224=(
LENGTH_UNIT()
NAMED_UNIT(*)
SI_UNIT(.MILLI.,.METRE.)
);
#225=(
NAMED_UNIT(*)
SI_UNIT($,.STERADIAN.)
SOLID_ANGLE_UNIT()
);
#226=DIMENSIONAL_EXPONENTS(0.,0.,0.,0.,0.,0.,0.);
#227=(
CONVERSION_BASED_UNIT('degree',#229)
NAMED_UNIT(#226)
PLANE_ANGLE_UNIT()
);
#228=(
NAMED_UNIT(*)
PLANE_ANGLE_UNIT()
SI_UNIT($,.RADIAN.)
);
#229=PLANE_ANGLE_MEASURE_WITH_UNIT(PLANE_ANGLE_MEASURE(0.01745329252),#228);
#230=SHAPE_DEFINITION_REPRESENTATION(#231,#232);
#231=PRODUCT_DEFINITION_SHAPE('',$,#234);
#232=SHAPE_REPRESENTATION('',(#126),#222);
#233=PRODUCT_DEFINITION_CONTEXT('part definition',#238,'design');
#234=PRODUCT_DEFINITION('TB06212005','TB06212005',#235,#233);
#235=PRODUCT_DEFINITION_FORMATION('',$,#240);
#236=PRODUCT_RELATED_PRODUCT_CATEGORY('TB06212005','TB06212005',(#240));
#237=APPLICATION_PROTOCOL_DEFINITION('international standard',
'automotive_design',2009,#238);
#238=APPLICATION_CONTEXT(
'Core Data for Automotive Mechanical Design Process');
#239=PRODUCT_CONTEXT('part definition',#238,'mechanical');
#240=PRODUCT('TB06212005','TB06212005',$,(#239));
#241=PRESENTATION_STYLE_ASSIGNMENT((#243));
#242=PRESENTATION_STYLE_ASSIGNMENT((#244));
#243=SURFACE_STYLE_USAGE(.BOTH.,#245);
#244=SURFACE_STYLE_USAGE(.BOTH.,#246);
#245=SURFACE_SIDE_STYLE($,(#247));
#246=SURFACE_SIDE_STYLE($,(#248));
#247=SURFACE_STYLE_FILL_AREA(#249);
#248=SURFACE_STYLE_FILL_AREA(#250);
#249=FILL_AREA_STYLE($,(#251));
#250=FILL_AREA_STYLE($,(#252));
#251=FILL_AREA_STYLE_COLOUR($,#253);
#252=FILL_AREA_STYLE_COLOUR($,#254);
#253=COLOUR_RGB('',0.749019607843137,0.749019607843137,0.749019607843137);
#254=COLOUR_RGB('',0.745098039215686,0.737254901960784,0.729411764705882);
ENDSEC;
END-ISO-10303-21;
