ISO-10303-21;
HEADER;
/* Generated by software containing ST-Developer
 * from STEP Tools, Inc. (www.steptools.com) 
 */

FILE_DESCRIPTION(
/* description */ (''),
/* implementation_level */ '2;1');

FILE_NAME(
/* name */ 
'Z:\\Installationskomponenten\\Datenbl\X\E4tter_pdfs\\KI Fittings\\Ski
zzen\\KI-310\\KI-310-008 Aschl.stp',
/* time_stamp */ '2016-06-02T14:46:22+02:00',
/* author */ ('hochmair'),
/* organization */ (''),
/* preprocessor_version */ 'ST-DEVELOPER v15.6',
/* originating_system */ 'Autodesk Inventor 2015',
/* authorisation */ '');

FILE_SCHEMA (('AUTOMOTIVE_DESIGN { 1 0 10303 214 3 1 1 }'));
ENDSEC;

DATA;
#10=MECHANICAL_DESIGN_GEOMETRIC_PRESENTATION_REPRESENTATION('',(#24,#23,
#22),#265);
#11=SHAPE_REPRESENTATION_RELATIONSHIP('SRR','None',#274,#12);
#12=ADVANCED_BREP_SHAPE_REPRESENTATION($,(#13),#264);
#13=MANIFOLD_SOLID_BREP('Solid1',#149);
#14=CONICAL_SURFACE('',#159,4.75,45.);
#15=CONICAL_SURFACE('',#166,4.75,45.);
#16=CONICAL_SURFACE('',#170,6.23208333333333,45.);
#17=CONICAL_SURFACE('',#173,6.23208333333333,45.);
#18=PLANE('',#157);
#19=PLANE('',#164);
#20=PLANE('',#168);
#21=PLANE('',#174);
#22=STYLED_ITEM('',(#285),#138);
#23=STYLED_ITEM('',(#285),#146);
#24=STYLED_ITEM('',(#284),#13);
#25=FACE_BOUND('',#50,.T.);
#26=FACE_BOUND('',#52,.T.);
#27=FACE_BOUND('',#54,.T.);
#28=FACE_BOUND('',#56,.T.);
#29=FACE_BOUND('',#58,.T.);
#30=FACE_BOUND('',#60,.T.);
#31=FACE_BOUND('',#62,.T.);
#32=FACE_BOUND('',#64,.T.);
#33=FACE_BOUND('',#66,.T.);
#34=FACE_BOUND('',#68,.T.);
#35=FACE_BOUND('',#70,.T.);
#36=FACE_BOUND('',#72,.T.);
#37=FACE_OUTER_BOUND('',#49,.T.);
#38=FACE_OUTER_BOUND('',#51,.T.);
#39=FACE_OUTER_BOUND('',#53,.T.);
#40=FACE_OUTER_BOUND('',#55,.T.);
#41=FACE_OUTER_BOUND('',#57,.T.);
#42=FACE_OUTER_BOUND('',#59,.T.);
#43=FACE_OUTER_BOUND('',#61,.T.);
#44=FACE_OUTER_BOUND('',#63,.T.);
#45=FACE_OUTER_BOUND('',#65,.T.);
#46=FACE_OUTER_BOUND('',#67,.T.);
#47=FACE_OUTER_BOUND('',#69,.T.);
#48=FACE_OUTER_BOUND('',#71,.T.);
#49=EDGE_LOOP('',(#109));
#50=EDGE_LOOP('',(#110));
#51=EDGE_LOOP('',(#111));
#52=EDGE_LOOP('',(#112));
#53=EDGE_LOOP('',(#113));
#54=EDGE_LOOP('',(#114));
#55=EDGE_LOOP('',(#115));
#56=EDGE_LOOP('',(#116));
#57=EDGE_LOOP('',(#117));
#58=EDGE_LOOP('',(#118));
#59=EDGE_LOOP('',(#119));
#60=EDGE_LOOP('',(#120));
#61=EDGE_LOOP('',(#121));
#62=EDGE_LOOP('',(#122));
#63=EDGE_LOOP('',(#123));
#64=EDGE_LOOP('',(#124));
#65=EDGE_LOOP('',(#125));
#66=EDGE_LOOP('',(#126));
#67=EDGE_LOOP('',(#127));
#68=EDGE_LOOP('',(#128));
#69=EDGE_LOOP('',(#129));
#70=EDGE_LOOP('',(#130));
#71=EDGE_LOOP('',(#131));
#72=EDGE_LOOP('',(#132));
#73=CIRCLE('',#152,6.69);
#74=CIRCLE('',#153,6.69);
#75=CIRCLE('',#155,6.5785);
#76=CIRCLE('',#156,6.5785);
#77=CIRCLE('',#158,6.5785);
#78=CIRCLE('',#160,4.4);
#79=CIRCLE('',#161,5.);
#80=CIRCLE('',#163,4.4);
#81=CIRCLE('',#165,5.88566666666666);
#82=CIRCLE('',#167,5.);
#83=CIRCLE('',#169,5.88566666666666);
#84=CIRCLE('',#171,6.5785);
#85=VERTEX_POINT('',#227);
#86=VERTEX_POINT('',#229);
#87=VERTEX_POINT('',#232);
#88=VERTEX_POINT('',#234);
#89=VERTEX_POINT('',#237);
#90=VERTEX_POINT('',#240);
#91=VERTEX_POINT('',#242);
#92=VERTEX_POINT('',#245);
#93=VERTEX_POINT('',#248);
#94=VERTEX_POINT('',#251);
#95=VERTEX_POINT('',#254);
#96=VERTEX_POINT('',#257);
#97=EDGE_CURVE('',#85,#85,#73,.T.);
#98=EDGE_CURVE('',#86,#86,#74,.T.);
#99=EDGE_CURVE('',#87,#87,#75,.T.);
#100=EDGE_CURVE('',#88,#88,#76,.T.);
#101=EDGE_CURVE('',#89,#89,#77,.T.);
#102=EDGE_CURVE('',#90,#90,#78,.F.);
#103=EDGE_CURVE('',#91,#91,#79,.T.);
#104=EDGE_CURVE('',#92,#92,#80,.F.);
#105=EDGE_CURVE('',#93,#93,#81,.T.);
#106=EDGE_CURVE('',#94,#94,#82,.T.);
#107=EDGE_CURVE('',#95,#95,#83,.T.);
#108=EDGE_CURVE('',#96,#96,#84,.T.);
#109=ORIENTED_EDGE('',*,*,#97,.F.);
#110=ORIENTED_EDGE('',*,*,#98,.F.);
#111=ORIENTED_EDGE('',*,*,#99,.F.);
#112=ORIENTED_EDGE('',*,*,#100,.T.);
#113=ORIENTED_EDGE('',*,*,#97,.T.);
#114=ORIENTED_EDGE('',*,*,#101,.F.);
#115=ORIENTED_EDGE('',*,*,#102,.T.);
#116=ORIENTED_EDGE('',*,*,#103,.T.);
#117=ORIENTED_EDGE('',*,*,#102,.F.);
#118=ORIENTED_EDGE('',*,*,#104,.F.);
#119=ORIENTED_EDGE('',*,*,#105,.F.);
#120=ORIENTED_EDGE('',*,*,#103,.F.);
#121=ORIENTED_EDGE('',*,*,#104,.T.);
#122=ORIENTED_EDGE('',*,*,#106,.T.);
#123=ORIENTED_EDGE('',*,*,#107,.F.);
#124=ORIENTED_EDGE('',*,*,#106,.F.);
#125=ORIENTED_EDGE('',*,*,#108,.T.);
#126=ORIENTED_EDGE('',*,*,#107,.T.);
#127=ORIENTED_EDGE('',*,*,#101,.T.);
#128=ORIENTED_EDGE('',*,*,#108,.F.);
#129=ORIENTED_EDGE('',*,*,#99,.T.);
#130=ORIENTED_EDGE('',*,*,#105,.T.);
#131=ORIENTED_EDGE('',*,*,#98,.T.);
#132=ORIENTED_EDGE('',*,*,#100,.F.);
#133=CYLINDRICAL_SURFACE('',#151,6.69);
#134=CYLINDRICAL_SURFACE('',#154,6.5785);
#135=CYLINDRICAL_SURFACE('',#162,4.4);
#136=CYLINDRICAL_SURFACE('',#172,6.5785);
#137=ADVANCED_FACE('',(#37,#25),#133,.T.);
#138=ADVANCED_FACE('',(#38,#26),#134,.T.);
#139=ADVANCED_FACE('',(#39,#27),#18,.F.);
#140=ADVANCED_FACE('',(#40,#28),#14,.F.);
#141=ADVANCED_FACE('',(#41,#29),#135,.F.);
#142=ADVANCED_FACE('',(#42,#30),#19,.T.);
#143=ADVANCED_FACE('',(#43,#31),#15,.F.);
#144=ADVANCED_FACE('',(#44,#32),#20,.F.);
#145=ADVANCED_FACE('',(#45,#33),#16,.T.);
#146=ADVANCED_FACE('',(#46,#34),#136,.T.);
#147=ADVANCED_FACE('',(#47,#35),#17,.T.);
#148=ADVANCED_FACE('',(#48,#36),#21,.T.);
#149=CLOSED_SHELL('',(#137,#138,#139,#140,#141,#142,#143,#144,#145,#146,
#147,#148));
#150=AXIS2_PLACEMENT_3D('placement',#225,#175,#176);
#151=AXIS2_PLACEMENT_3D('',#226,#177,#178);
#152=AXIS2_PLACEMENT_3D('',#228,#179,#180);
#153=AXIS2_PLACEMENT_3D('',#230,#181,#182);
#154=AXIS2_PLACEMENT_3D('',#231,#183,#184);
#155=AXIS2_PLACEMENT_3D('',#233,#185,#186);
#156=AXIS2_PLACEMENT_3D('',#235,#187,#188);
#157=AXIS2_PLACEMENT_3D('',#236,#189,#190);
#158=AXIS2_PLACEMENT_3D('',#238,#191,#192);
#159=AXIS2_PLACEMENT_3D('',#239,#193,#194);
#160=AXIS2_PLACEMENT_3D('',#241,#195,#196);
#161=AXIS2_PLACEMENT_3D('',#243,#197,#198);
#162=AXIS2_PLACEMENT_3D('',#244,#199,#200);
#163=AXIS2_PLACEMENT_3D('',#246,#201,#202);
#164=AXIS2_PLACEMENT_3D('',#247,#203,#204);
#165=AXIS2_PLACEMENT_3D('',#249,#205,#206);
#166=AXIS2_PLACEMENT_3D('',#250,#207,#208);
#167=AXIS2_PLACEMENT_3D('',#252,#209,#210);
#168=AXIS2_PLACEMENT_3D('',#253,#211,#212);
#169=AXIS2_PLACEMENT_3D('',#255,#213,#214);
#170=AXIS2_PLACEMENT_3D('',#256,#215,#216);
#171=AXIS2_PLACEMENT_3D('',#258,#217,#218);
#172=AXIS2_PLACEMENT_3D('',#259,#219,#220);
#173=AXIS2_PLACEMENT_3D('',#260,#221,#222);
#174=AXIS2_PLACEMENT_3D('',#261,#223,#224);
#175=DIRECTION('axis',(0.,0.,1.));
#176=DIRECTION('refdir',(1.,0.,0.));
#177=DIRECTION('center_axis',(0.,1.,0.));
#178=DIRECTION('ref_axis',(1.,0.,0.));
#179=DIRECTION('center_axis',(0.,-1.,0.));
#180=DIRECTION('ref_axis',(1.,0.,0.));
#181=DIRECTION('center_axis',(0.,1.,0.));
#182=DIRECTION('ref_axis',(1.,0.,0.));
#183=DIRECTION('center_axis',(0.,1.,0.));
#184=DIRECTION('ref_axis',(1.,0.,0.));
#185=DIRECTION('center_axis',(0.,1.,0.));
#186=DIRECTION('ref_axis',(1.,0.,0.));
#187=DIRECTION('center_axis',(0.,1.,0.));
#188=DIRECTION('ref_axis',(1.,0.,0.));
#189=DIRECTION('center_axis',(0.,1.,0.));
#190=DIRECTION('ref_axis',(0.,0.,1.));
#191=DIRECTION('center_axis',(0.,-1.,0.));
#192=DIRECTION('ref_axis',(1.,0.,0.));
#193=DIRECTION('center_axis',(0.,1.,0.));
#194=DIRECTION('ref_axis',(1.,0.,0.));
#195=DIRECTION('center_axis',(0.,1.,0.));
#196=DIRECTION('ref_axis',(1.,0.,0.));
#197=DIRECTION('center_axis',(0.,1.,0.));
#198=DIRECTION('ref_axis',(1.,0.,0.));
#199=DIRECTION('center_axis',(0.,1.,0.));
#200=DIRECTION('ref_axis',(1.,0.,0.));
#201=DIRECTION('center_axis',(0.,-1.,0.));
#202=DIRECTION('ref_axis',(1.,0.,0.));
#203=DIRECTION('center_axis',(0.,1.,0.));
#204=DIRECTION('ref_axis',(0.,0.,1.));
#205=DIRECTION('center_axis',(0.,-1.,0.));
#206=DIRECTION('ref_axis',(1.,0.,0.));
#207=DIRECTION('center_axis',(0.,-1.,0.));
#208=DIRECTION('ref_axis',(1.,0.,0.));
#209=DIRECTION('center_axis',(0.,-1.,0.));
#210=DIRECTION('ref_axis',(1.,0.,0.));
#211=DIRECTION('center_axis',(0.,1.,0.));
#212=DIRECTION('ref_axis',(0.,0.,1.));
#213=DIRECTION('center_axis',(0.,1.,0.));
#214=DIRECTION('ref_axis',(1.,0.,0.));
#215=DIRECTION('center_axis',(0.,1.,0.));
#216=DIRECTION('ref_axis',(1.,0.,0.));
#217=DIRECTION('center_axis',(0.,-1.,0.));
#218=DIRECTION('ref_axis',(1.,0.,0.));
#219=DIRECTION('center_axis',(0.,1.,0.));
#220=DIRECTION('ref_axis',(1.,0.,0.));
#221=DIRECTION('center_axis',(0.,-1.,0.));
#222=DIRECTION('ref_axis',(1.,0.,0.));
#223=DIRECTION('center_axis',(0.,1.,0.));
#224=DIRECTION('ref_axis',(0.,0.,1.));
#225=CARTESIAN_POINT('',(0.,0.,0.));
#226=CARTESIAN_POINT('Origin',(0.,0.,0.));
#227=CARTESIAN_POINT('',(-6.69,-3.,8.19288708629579E-16));
#228=CARTESIAN_POINT('Origin',(0.,-3.,0.));
#229=CARTESIAN_POINT('',(-6.69,3.,8.19288708629579E-16));
#230=CARTESIAN_POINT('Origin',(0.,3.,0.));
#231=CARTESIAN_POINT('Origin',(0.,0.,0.));
#232=CARTESIAN_POINT('',(-6.5785,14.3071666666667,8.05633896819086E-16));
#233=CARTESIAN_POINT('Origin',(0.,14.3071666666667,0.));
#234=CARTESIAN_POINT('',(1.79555019145544,3.,6.32871722863048));
#235=CARTESIAN_POINT('Origin',(0.,3.,0.));
#236=CARTESIAN_POINT('Origin',(6.81566970675466E-17,-3.,0.));
#237=CARTESIAN_POINT('',(0.459960974311493,-3.,6.56240033464207));
#238=CARTESIAN_POINT('Origin',(0.,-3.,0.));
#239=CARTESIAN_POINT('Origin',(0.,14.75,0.));
#240=CARTESIAN_POINT('',(-4.4,14.4,5.38844591624835E-16));
#241=CARTESIAN_POINT('Origin',(0.,14.4,0.));
#242=CARTESIAN_POINT('',(-5.,15.,6.12323399573677E-16));
#243=CARTESIAN_POINT('Origin',(0.,15.,0.));
#244=CARTESIAN_POINT('Origin',(0.,0.,0.));
#245=CARTESIAN_POINT('',(-4.4,-14.4,-5.38844591624835E-16));
#246=CARTESIAN_POINT('Origin',(0.,-14.4,0.));
#247=CARTESIAN_POINT('Origin',(3.48411784382553E-16,15.,1.40637813157148E-16));
#248=CARTESIAN_POINT('',(-5.88566666666666,15.,-7.2078628441816E-16));
#249=CARTESIAN_POINT('Origin',(0.,15.,0.));
#250=CARTESIAN_POINT('Origin',(0.,-14.75,0.));
#251=CARTESIAN_POINT('',(-5.,-15.,-6.12323399573677E-16));
#252=CARTESIAN_POINT('Origin',(0.,-15.,0.));
#253=CARTESIAN_POINT('Origin',(3.48411784382553E-16,-15.,1.40637813157148E-16));
#254=CARTESIAN_POINT('',(-5.88566666666666,-15.,7.2078628441816E-16));
#255=CARTESIAN_POINT('Origin',(0.,-15.,0.));
#256=CARTESIAN_POINT('Origin',(0.,-14.6535833333333,0.));
#257=CARTESIAN_POINT('',(-6.5785,-14.3071666666667,-8.05633896819086E-16));
#258=CARTESIAN_POINT('Origin',(0.,-14.3071666666667,0.));
#259=CARTESIAN_POINT('Origin',(0.,0.,0.));
#260=CARTESIAN_POINT('Origin',(0.,14.6535833333333,0.));
#261=CARTESIAN_POINT('Origin',(6.81566970675466E-17,3.,0.));
#262=UNCERTAINTY_MEASURE_WITH_UNIT(LENGTH_MEASURE(0.01),#266,
'DISTANCE_ACCURACY_VALUE',
'Maximum model space distance between geometric entities at asserted c
onnectivities');
#263=UNCERTAINTY_MEASURE_WITH_UNIT(LENGTH_MEASURE(1.E-6),#266,
'DISTANCE_ACCURACY_VALUE',
'Maximum model space distance between geometric entities at asserted c
onnectivities');
#264=(
GEOMETRIC_REPRESENTATION_CONTEXT(3)
GLOBAL_UNCERTAINTY_ASSIGNED_CONTEXT((#262))
GLOBAL_UNIT_ASSIGNED_CONTEXT((#266,#269,#267))
REPRESENTATION_CONTEXT('','3D')
);
#265=(
GEOMETRIC_REPRESENTATION_CONTEXT(3)
GLOBAL_UNCERTAINTY_ASSIGNED_CONTEXT((#263))
GLOBAL_UNIT_ASSIGNED_CONTEXT((#266,#269,#267))
REPRESENTATION_CONTEXT('','3D')
);
#266=(
LENGTH_UNIT()
NAMED_UNIT(*)
SI_UNIT(.MILLI.,.METRE.)
);
#267=(
NAMED_UNIT(*)
SI_UNIT($,.STERADIAN.)
SOLID_ANGLE_UNIT()
);
#268=DIMENSIONAL_EXPONENTS(0.,0.,0.,0.,0.,0.,0.);
#269=(
CONVERSION_BASED_UNIT('degree',#271)
NAMED_UNIT(#268)
PLANE_ANGLE_UNIT()
);
#270=(
NAMED_UNIT(*)
PLANE_ANGLE_UNIT()
SI_UNIT($,.RADIAN.)
);
#271=PLANE_ANGLE_MEASURE_WITH_UNIT(PLANE_ANGLE_MEASURE(0.01745329252),#270);
#272=SHAPE_DEFINITION_REPRESENTATION(#273,#274);
#273=PRODUCT_DEFINITION_SHAPE('',$,#276);
#274=SHAPE_REPRESENTATION('',(#150),#264);
#275=PRODUCT_DEFINITION_CONTEXT('part definition',#280,'design');
#276=PRODUCT_DEFINITION('KI-310-008 Aschl','KI-310-008 Aschl',#277,#275);
#277=PRODUCT_DEFINITION_FORMATION('',$,#282);
#278=PRODUCT_RELATED_PRODUCT_CATEGORY('KI-310-008 Aschl',
'KI-310-008 Aschl',(#282));
#279=APPLICATION_PROTOCOL_DEFINITION('international standard',
'automotive_design',2009,#280);
#280=APPLICATION_CONTEXT(
'Core Data for Automotive Mechanical Design Process');
#281=PRODUCT_CONTEXT('part definition',#280,'mechanical');
#282=PRODUCT('KI-310-008 Aschl','KI-310-008 Aschl',$,(#281));
#283=PRESENTATION_STYLE_ASSIGNMENT((#286));
#284=PRESENTATION_STYLE_ASSIGNMENT((#287));
#285=PRESENTATION_STYLE_ASSIGNMENT((#288));
#286=SURFACE_STYLE_USAGE(.BOTH.,#289);
#287=SURFACE_STYLE_USAGE(.BOTH.,#290);
#288=SURFACE_STYLE_USAGE(.BOTH.,#291);
#289=SURFACE_SIDE_STYLE($,(#292));
#290=SURFACE_SIDE_STYLE($,(#293));
#291=SURFACE_SIDE_STYLE($,(#294));
#292=SURFACE_STYLE_FILL_AREA(#295);
#293=SURFACE_STYLE_FILL_AREA(#296);
#294=SURFACE_STYLE_FILL_AREA(#297);
#295=FILL_AREA_STYLE($,(#298));
#296=FILL_AREA_STYLE($,(#299));
#297=FILL_AREA_STYLE($,(#300));
#298=FILL_AREA_STYLE_COLOUR($,#301);
#299=FILL_AREA_STYLE_COLOUR($,#302);
#300=FILL_AREA_STYLE_COLOUR($,#303);
#301=COLOUR_RGB('',0.749019607843137,0.749019607843137,0.749019607843137);
#302=COLOUR_RGB('',0.745098039215686,0.737254901960784,0.729411764705882);
#303=COLOUR_RGB('',0.647058823529412,0.67843137254902,0.694117647058824);
ENDSEC;
END-ISO-10303-21;
