                                                                        S      1
,,5HS72AH,27HNo Iges File Name specified,22HAutodesk Inventor 2012,37HAuG      1
toDesk Inventor Iges Exporter R2012,32,38,6,99,15,5HS72AH,1.0D0,2,2HMM, G      2
1,.08D0,15H20130604.110401,.01D0,10000.0D0,6Haporro,,11,0,,;            G      3
     406       1       0       0       1       0       0       000000000D      1
     406       0       0       1       3                               0D      2
     120       2       0       0       0       0       0       000010000D      3
     120       0       0       1       0                               0D      4
     110       3       0       0       0       0       0       000010000D      5
     110       0       0       2       0                               0D      6
     110       5       0       0       0       0       0       001010000D      7
     110       0       0       2       0                               0D      8
     504       7       0       0       0       0       0       000010001D      9
     504       0       0       2       1                               0D     10
     502       9       0       0       0       0       0       000010000D     11
     502       0       0       8       1                               0D     12
     100      17       0       0       0       0      15       000010000D     13
     100       0       0       2       0                               0D     14
     124      19       0       0       0       0       0       000000000D     15
     124       0       0       2       0                               0D     16
     508      21       0       0       0       0       0       000010000D     17
     508       0       0       1       1                               0D     18
     100      22       0       0       0       0      21       000010000D     19
     100       0       0       2       0                               0D     20
     124      24       0       0       0       0       0       000000000D     21
     124       0       0       2       0                               0D     22
     508      26       0       0       0       0       0       000010000D     23
     508       0       0       1       1                               0D     24
     510      27       0       0       0       0       0       000010000D     25
     510       0    -145       1       1                               0D     26
     120      28       0       0       0       0       0       000010000D     27
     120       0       0       1       0                               0D     28
     100      29       0       0       0       0      31       000010000D     29
     100       0       0       1       0                               0D     30
     124      30       0       0       0       0       0       000000000D     31
     124       0       0       2       0                               0D     32
     110      32       0       0       0       0       0       001010000D     33
     110       0       0       2       0                               0D     34
     508      34       0       0       0       0       0       000010000D     35
     508       0       0       1       1                               0D     36
     100      35       0       0       0       0      39       000010000D     37
     100       0       0       2       0                               0D     38
     124      37       0       0       0       0       0       000000000D     39
     124       0       0       2       0                               0D     40
     508      39       0       0       0       0       0       000010000D     41
     508       0       0       1       1                               0D     42
     510      40       0       0       0       0       0       000010000D     43
     510       0    -145       1       1                               0D     44
     120      41       0       0       0       0       0       000010000D     45
     120       0       0       1       0                               0D     46
     110      42       0       0       0       0       0       000010000D     47
     110       0       0       2       0                               0D     48
     110      44       0       0       0       0       0       001010000D     49
     110       0       0       2       0                               0D     50
     508      46       0       0       0       0       0       000010000D     51
     508       0       0       1       1                               0D     52
     100      47       0       0       0       0      55       000010000D     53
     100       0       0       2       0                               0D     54
     124      49       0       0       0       0       0       000000000D     55
     124       0       0       2       0                               0D     56
     508      51       0       0       0       0       0       000010000D     57
     508       0       0       1       1                               0D     58
     510      52       0       0       0       0       0       000010000D     59
     510       0    -145       1       1                               0D     60
     116      53       0       0       0       0       0       000010000D     61
     116       0       0       1       0                               0D     62
     123      54       0       0       0       0       0       000010200D     63
     123       0       0       1       0                               0D     64
     192      55       0       0       0       0       0       000010000D     65
     192       0       0       1       1                               0D     66
     123      56       0       0       0       0       0       000010200D     67
     123       0       0       1       0                               0D     68
     100      57       0       0       0       0      15       000010000D     69
     100       0       0       2       0                               0D     70
     508      59       0       0       0       0       0       000010000D     71
     508       0       0       1       1                               0D     72
     100      60       0       0       0       0      21       000010000D     73
     100       0       0       2       0                               0D     74
     508      62       0       0       0       0       0       000010000D     75
     508       0       0       1       1                               0D     76
     510      63       0       0       0       0       0       000010000D     77
     510       0    -145       1       1                               0D     78
     116      64       0       0       0       0       0       000010000D     79
     116       0       0       1       0                               0D     80
     123      65       0       0       0       0       0       000010200D     81
     123       0       0       1       0                               0D     82
     198      66       0       0       0       0       0       000010000D     83
     198       0       0       1       1                               0D     84
     123      67       0       0       0       0       0       000010200D     85
     123       0       0       1       0                               0D     86
     508      68       0       0       0       0       0       000010000D     87
     508       0       0       1       1                               0D     88
     100      69       0       0       0       0      39       000010000D     89
     100       0       0       2       0                               0D     90
     508      71       0       0       0       0       0       000010000D     91
     508       0       0       1       1                               0D     92
     510      72       0       0       0       0       0       000010000D     93
     510       0    -145       1       1                               0D     94
     116      73       0       0       0       0       0       000010000D     95
     116       0       0       1       0                               0D     96
     123      74       0       0       0       0       0       000010200D     97
     123       0       0       1       0                               0D     98
     192      75       0       0       0       0       0       000010000D     99
     192       0       0       1       1                               0D    100
     123      76       0       0       0       0       0       000010200D    101
     123       0       0       1       0                               0D    102
     508      77       0       0       0       0       0       000010000D    103
     508       0       0       1       1                               0D    104
     100      78       0       0       0       0     107       000010000D    105
     100       0       0       2       0                               0D    106
     124      80       0       0       0       0       0       000000000D    107
     124       0       0       2       0                               0D    108
     508      82       0       0       0       0       0       000010000D    109
     508       0       0       1       1                               0D    110
     510      83       0       0       0       0       0       000010000D    111
     510       0    -145       1       1                               0D    112
     116      84       0       0       0       0       0       000010000D    113
     116       0       0       1       0                               0D    114
     123      85       0       0       0       0       0       000010200D    115
     123       0       0       1       0                               0D    116
     190      86       0       0       0       0       0       000010000D    117
     190       0       0       1       1                               0D    118
     123      87       0       0       0       0       0       000010200D    119
     123       0       0       1       0                               0D    120
     508      88       0       0       0       0       0       000010000D    121
     508       0       0       1       1                               0D    122
     508      89       0       0       0       0       0       000010000D    123
     508       0       0       1       1                               0D    124
     510      90       0       0       0       0       0       000010000D    125
     510       0    -145       1       1                               0D    126
     116      91       0       0       0       0       0       000010000D    127
     116       0       0       1       0                               0D    128
     123      92       0       0       0       0       0       000010200D    129
     123       0       0       1       0                               0D    130
     190      93       0       0       0       0       0       000010000D    131
     190       0       0       1       1                               0D    132
     123      94       0       0       0       0       0       000010200D    133
     123       0       0       1       0                               0D    134
     508      95       0       0       0       0       0       000010000D    135
     508       0       0       1       1                               0D    136
     508      96       0       0       0       0       0       000010000D    137
     508       0       0       1       1                               0D    138
     510      97       0       0       0       0       0       000010000D    139
     510       0    -145       1       1                               0D    140
     514      98       0       0       0       0       0       000010000D    141
     514       0       0       1       1                               0D    142
     186      99       0       0       1       0       0       000000000D    143
     186       0       0       1       0                 Solido1       0D    144
     314     100       0       0       0       0       0       000000000D    145
     314       0       8       1       0                               0D    146
406,2,0,5HS72AH;                                                       1P      1
120,7,5,0.0D0,6.28318530717959D0;                                      3P      2
110,-44.2806424965365D0,0.0D0,254.04878036687D0,                       5P      3
-120.606507572734D0,0.0D0,298.115539114743D0;                          5P      4
110,-34.5306424965365D0,0.0D0,270.936275740666D0,                      7P      5
-35.3966679003209D0,0.0D0,271.436275740666D0;                          7P      6
504,8,13,11,1,11,1,19,11,2,11,2,37,11,3,11,3,53,11,4,11,4,69,11,       9P      7
5,11,5,73,11,6,11,6,89,11,7,11,7,105,11,8,11,8;                        9P      8
502,8,-97.6371500692704D0,2.38806125833734D-15,                       11P      9
329.887495373797D0,-28.25D0,2.38806125833734D-15,                     11P     10
289.826805603002D0,19.5D0,2.38806125833734D-15,                       11P     11
207.121379541589D0,19.5D0,2.38806125833734D-15,0.0D0,                 11P     12
-96.8871500692704D0,2.57175827820944D-15,331.186533479473D0,          11P     13
-27.5D0,2.57175827820944D-15,291.125843708679D0,21.0D0,               11P     14
2.57175827820944D-15,207.121379541589D0,21.0D0,                       11P     15
2.57175827820944D-15,0.0D0;                                           11P     16
100,0.0D0,0.0D0,0.0D0,-19.5D0,2.38806125833734D-15,-19.5D0,           13P     17
2.38806125833734D-15;                                                 13P     18
124,-.5D0,0.0D0,.866025403784439D0,-107.38715006927D0,0.0D0,          15P     19
1.0D0,0.0D0,0.0D0,-.866025403784439D0,0.0D0,-.5D0,313.0D0;            15P     20
508,1,0,9,1,0,0;                                                      17P     21
100,0.0D0,0.0D0,0.0D0,-19.5D0,2.38806125833734D-15,-19.5D0,           19P     22
2.38806125833734D-15;                                                 19P     23
124,-.5D0,0.0D0,.866025403784439D0,-38.0D0,0.0D0,1.0D0,0.0D0,         21P     24
0.0D0,-.866025403784439D0,0.0D0,-.5D0,272.939310229206D0;             21P     25
508,1,0,9,2,1,0;                                                      23P     26
510,3,2,1,17,23;                                                      25P     27
120,33,29,0.0D0,6.28318530717959D0;                                   27P     28
100,0.0D0,0.0D0,0.0D0,19.5D0,0.0D0,19.5D0,0.0D0;                      29P     29
124,0.0D0,0.0D0,1.0D0,-76.0D0,0.0D0,1.0D0,0.0D0,                      31P     30
-1.19403062916867D-15,-1.0D0,0.0D0,0.0D0,131.121379541588D0;          31P     31
110,-76.0D0,0.0D0,207.121379541589D0,-76.0D0,1.0D0,                   33P     32
207.121379541589D0;                                                   33P     33
508,1,0,9,2,0,0;                                                      35P     34
100,0.0D0,0.0D0,0.0D0,-19.5D0,2.38806125833734D-15,-19.5D0,           37P     35
2.38806125833734D-15;                                                 37P     36
124,-1.0D0,0.0D0,0.0D0,0.0D0,0.0D0,1.0D0,0.0D0,0.0D0,0.0D0,           39P     37
0.0D0,-1.0D0,207.121379541589D0;                                      39P     38
508,1,0,9,3,1,0;                                                      41P     39
510,27,2,1,35,41;                                                     43P     40
120,49,47,0.0D0,6.28318530717959D0;                                   45P     41
110,-19.5D0,0.0D0,-10.3560689770794D0,-19.5D0,0.0D0,                  47P     42
217.477448518668D0;                                                   47P     43
110,0.0D0,0.0D0,-10.3560689770794D0,0.0D0,0.0D0,                      49P     44
-9.35606897707942D0;                                                  49P     45
508,1,0,9,3,0,0;                                                      51P     46
100,0.0D0,0.0D0,0.0D0,-19.5D0,2.38806125833734D-15,-19.5D0,           53P     47
2.38806125833734D-15;                                                 53P     48
124,-1.0D0,0.0D0,0.0D0,0.0D0,0.0D0,-1.0D0,0.0D0,0.0D0,0.0D0,          55P     49
0.0D0,1.0D0,0.0D0;                                                    55P     50
508,1,0,9,4,0,0;                                                      57P     51
510,45,2,1,51,57;                                                     59P     52
116,-38.0D0,0.0D0,272.939310229206D0,0;                               61P     53
123,-.866025403784439D0,0.0D0,.5D0;                                   63P     54
192,61,63,21.0D0,67;                                                  65P     55
123,-.5D0,0.0D0,-.866025403784439D0;                                  67P     56
100,0.0D0,0.0D0,0.0D0,-21.0D0,2.57175827820944D-15,-21.0D0,           69P     57
2.57175827820944D-15;                                                 69P     58
508,1,0,9,5,1,0;                                                      71P     59
100,0.0D0,0.0D0,0.0D0,-21.0D0,2.57175827820944D-15,-21.0D0,           73P     60
2.57175827820944D-15;                                                 73P     61
508,1,0,9,6,0,0;                                                      75P     62
510,65,2,1,71,75;                                                     77P     63
116,-76.0D0,0.0D0,207.121379541589D0,0;                               79P     64
123,0.0D0,-1.0D0,0.0D0;                                               81P     65
198,79,81,76.0D0,21.0D0,85;                                           83P     66
123,0.0D0,0.0D0,-1.0D0;                                               85P     67
508,1,0,9,6,1,0;                                                      87P     68
100,0.0D0,0.0D0,0.0D0,-21.0D0,2.57175827820944D-15,-21.0D0,           89P     69
2.57175827820944D-15;                                                 89P     70
508,1,0,9,7,0,0;                                                      91P     71
510,83,2,1,87,91;                                                     93P     72
116,0.0D0,0.0D0,0.0D0,0;                                              95P     73
123,0.0D0,0.0D0,1.0D0;                                                97P     74
192,95,97,21.0D0,101;                                                 99P     75
123,-1.0D0,0.0D0,0.0D0;                                              101P     76
508,1,0,9,7,1,0;                                                     103P     77
100,0.0D0,0.0D0,0.0D0,-21.0D0,2.57175827820944D-15,-21.0D0,          105P     78
2.57175827820944D-15;                                                105P     79
124,-1.0D0,0.0D0,0.0D0,0.0D0,0.0D0,1.0D0,0.0D0,0.0D0,0.0D0,          107P     80
0.0D0,-1.0D0,0.0D0;                                                  107P     81
508,1,0,9,8,0,0;                                                     109P     82
510,99,2,1,103,109;                                                  111P     83
116,-107.38715006927D0,0.0D0,313.0D0,0;                              113P     84
123,-.866025403784439D0,0.0D0,.5D0;                                  115P     85
190,113,115,119;                                                     117P     86
123,.5D0,0.0D0,.866025403784439D0;                                   119P     87
508,1,0,9,5,0,0;                                                     121P     88
508,1,0,9,1,1,0;                                                     123P     89
510,117,2,1,121,123;                                                 125P     90
116,0.0D0,0.0D0,0.0D0,0;                                             127P     91
123,0.0D0,0.0D0,-1.0D0;                                              129P     92
190,127,129,133;                                                     131P     93
123,-1.0D0,0.0D0,0.0D0;                                              133P     94
508,1,0,9,8,1,0;                                                     135P     95
508,1,0,9,4,1,0;                                                     137P     96
510,131,2,1,135,137;                                                 139P     97
514,8,25,1,43,1,59,1,77,1,93,1,111,1,125,1,139,1;                    141P     98
186,141,1,0;                                                         143P     99
314,75.2941012382507D0,75.2941012382507D0,75.2941012382507D0,;       145P    100
S      1G      3D    146P    100                                        T      1
